ISO-10303-21;
HEADER;
FILE_DESCRIPTION (( 'STEP AP203' ),
    '1' );
FILE_NAME ('QB-CTZQWP-10-780-M.STEP',
    '2020-12-24T01:48:37',
    ( '' ),
    ( '' ),
    'SwSTEP 2.0',
    'SolidWorks 2020',
    '' );
FILE_SCHEMA (( 'CONFIG_CONTROL_DESIGN' ));
ENDSEC;

DATA;
#1 = DIRECTION ( 'NONE',  ( -1.000000000000000000, 0.000000000000000000, -0.000000000000000000 ) ) ;
#2 = DIRECTION ( 'NONE',  ( 0.000000000000000000, 0.000000000000000000, 1.000000000000000000 ) ) ;
#3 = ORIENTED_EDGE ( 'NONE', *, *, #136, .T. ) ;
#4 = CARTESIAN_POINT ( 'NONE',  ( -1.614212418857619014, 1.555301434917138433E-15, -12.69999999999999929 ) ) ;
#5 =( NAMED_UNIT ( * ) PLANE_ANGLE_UNIT ( ) SI_UNIT ( $, .RADIAN. ) );
#6 = AXIS2_PLACEMENT_3D ( 'NONE', #222, #97, #326 ) ;
#7 = DIRECTION ( 'NONE',  ( 0.000000000000000000, 0.000000000000000000, 1.000000000000000000 ) ) ;
#8 = VERTEX_POINT ( 'NONE', #271 ) ;
#9 = CC_DESIGN_PERSON_AND_ORGANIZATION_ASSIGNMENT ( #62, #295, ( #217 ) ) ;
#10 = APPROVAL_ROLE ( '' ) ;
#11 = ADVANCED_FACE ( 'NONE', ( #47, #118 ), #220, .F. ) ;
#12 = CIRCLE ( 'NONE', #121, 5.000000000000000000 ) ;
#13 = PERSON_AND_ORGANIZATION ( #174, #70 ) ;
#14 = DIRECTION ( 'NONE',  ( 0.000000000000000000, 0.000000000000000000, 1.000000000000000000 ) ) ;
#15 = ADVANCED_FACE ( 'NONE', ( #219 ), #23, .F. ) ;
#16 = CARTESIAN_POINT ( 'NONE',  ( -3.000000000000000000, 0.000000000000000000, 0.000000000000000000 ) ) ;
#17 = DATE_TIME_ROLE ( 'creation_date' ) ;
#18 = ORIENTED_EDGE ( 'NONE', *, *, #46, .F. ) ;
#19 = AXIS2_PLACEMENT_3D ( 'NONE', #241, #249, #14 ) ;
#20 = APPROVAL_PERSON_ORGANIZATION ( #13, #216, #10 ) ;
#21 = VERTEX_POINT ( 'NONE', #95 ) ;
#22 = LINE ( 'NONE', #68, #49 ) ;
#23 = CYLINDRICAL_SURFACE ( 'NONE', #6, 5.000000000000000888 ) ;
#24 = DIRECTION ( 'NONE',  ( 0.000000000000000000, 0.000000000000000000, 1.000000000000000000 ) ) ;
#25 = AXIS2_PLACEMENT_3D ( 'NONE', #229, #51, #224 ) ;
#26 = CC_DESIGN_SECURITY_CLASSIFICATION ( #217, ( #332 ) ) ;
#27 = DIRECTION ( 'NONE',  ( 0.000000000000000000, 0.000000000000000000, -1.000000000000000000 ) ) ;
#28 = CIRCLE ( 'NONE', #311, 5.000000000000001776 ) ;
#29 = CC_DESIGN_APPROVAL ( #216, ( #217 ) ) ;
#30 = ORIENTED_EDGE ( 'NONE', *, *, #237, .F. ) ;
#31 = FACE_OUTER_BOUND ( 'NONE', #161, .T. ) ;
#32 = APPLICATION_CONTEXT ( 'configuration controlled 3d designs of mechanical parts and assemblies' ) ;
#33 = CARTESIAN_POINT ( 'NONE',  ( -1.614212418857619014, 0.000000000000000000, 0.000000000000000000 ) ) ;
#34 = LINE ( 'NONE', #37, #245 ) ;
#35 = VERTEX_POINT ( 'NONE', #298 ) ;
#36 = CARTESIAN_POINT ( 'NONE',  ( 0.000000000000000000, 0.000000000000000000, 0.000000000000000000 ) ) ;
#37 = CARTESIAN_POINT ( 'NONE',  ( -1.614212418857619014, 0.000000000000000000, 5.000000000000000888 ) ) ;
#38 = CARTESIAN_POINT ( 'NONE',  ( -1.614212418857619014, 6.123233995736767268E-16, -5.000000000000000888 ) ) ;
#39 = SHAPE_DEFINITION_REPRESENTATION ( #90, #287 ) ;
#40 = PERSON_AND_ORGANIZATION_ROLE ( 'creator' ) ;
#41 = APPROVAL_DATE_TIME ( #110, #148 ) ;
#42 = ORIENTED_EDGE ( 'NONE', *, *, #257, .F. ) ;
#43 = ORIENTED_EDGE ( 'NONE', *, *, #93, .T. ) ;
#44 = AXIS2_PLACEMENT_3D ( 'NONE', #265, #79, #204 ) ;
#45 = CARTESIAN_POINT ( 'NONE',  ( 3.000000000000000000, 12.69999999999999929, 0.000000000000000000 ) ) ;
#46 = EDGE_CURVE ( 'NONE', #35, #258, #22, .T. ) ;
#47 = FACE_OUTER_BOUND ( 'NONE', #117, .T. ) ;
#48 = DIRECTION ( 'NONE',  ( -1.000000000000000000, -0.000000000000000000, -0.000000000000000000 ) ) ;
#49 = VECTOR ( 'NONE', #163, 1000.000000000000000 ) ;
#50 = FACE_OUTER_BOUND ( 'NONE', #206, .T. ) ;
#51 = DIRECTION ( 'NONE',  ( -1.000000000000000000, -0.000000000000000000, -0.000000000000000000 ) ) ;
#52 =( NAMED_UNIT ( * ) SI_UNIT ( $, .STERADIAN. ) SOLID_ANGLE_UNIT ( ) );
#53 = AXIS2_PLACEMENT_3D ( 'NONE', #178, #234, #7 ) ;
#54 = EDGE_CURVE ( 'NONE', #328, #145, #128, .T. ) ;
#55 = EDGE_LOOP ( 'NONE', ( #18, #165, #296, #3 ) ) ;
#56 = CARTESIAN_POINT ( 'NONE',  ( -3.000000000000000000, 6.123233995736766282E-16, -5.000000000000000000 ) ) ;
#57 = VERTEX_POINT ( 'NONE', #80 ) ;
#58 = FACE_OUTER_BOUND ( 'NONE', #299, .T. ) ;
#59 = CARTESIAN_POINT ( 'NONE',  ( -1.614212418857619014, 0.000000000000000000, 0.000000000000000000 ) ) ;
#60 = CARTESIAN_POINT ( 'NONE',  ( 3.000000000000000000, 0.000000000000000000, 5.000000000000001776 ) ) ;
#61 = DIRECTION ( 'NONE',  ( 0.000000000000000000, 0.000000000000000000, 1.000000000000000000 ) ) ;
#62 = PERSON_AND_ORGANIZATION ( #174, #70 ) ;
#63 = APPROVAL_STATUS ( 'not_yet_approved' ) ;
#64 = VECTOR ( 'NONE', #306, 1000.000000000000000 ) ;
#65 = CC_DESIGN_PERSON_AND_ORGANIZATION_ASSIGNMENT ( #91, #98, ( #332 ) ) ;
#66 = EDGE_LOOP ( 'NONE', ( #191, #81, #67, #139 ) ) ;
#67 = ORIENTED_EDGE ( 'NONE', *, *, #257, .T. ) ;
#68 = CARTESIAN_POINT ( 'NONE',  ( -1.614212418857619014, 6.123233995736767268E-16, -5.000000000000000888 ) ) ;
#69 = ORIENTED_EDGE ( 'NONE', *, *, #274, .F. ) ;
#70 = ORGANIZATION ( 'UNSPECIFIED', 'UNSPECIFIED', '' ) ;
#71 = ORIENTED_EDGE ( 'NONE', *, *, #228, .T. ) ;
#72 = CARTESIAN_POINT ( 'NONE',  ( -3.000000000000000000, 5.000000000000000000, 0.000000000000000000 ) ) ;
#73 =( GEOMETRIC_REPRESENTATION_CONTEXT ( 3 ) GLOBAL_UNCERTAINTY_ASSIGNED_CONTEXT ( ( #277 ) ) GLOBAL_UNIT_ASSIGNED_CONTEXT ( ( #76, #5, #52 ) ) REPRESENTATION_CONTEXT ( 'NONE', 'WORKASPACE' ) );
#74 = DIRECTION ( 'NONE',  ( 0.000000000000000000, 0.000000000000000000, 1.000000000000000000 ) ) ;
#75 = FACE_BOUND ( 'NONE', #248, .T. ) ;
#76 =( LENGTH_UNIT ( ) NAMED_UNIT ( * ) SI_UNIT ( .MILLI., .METRE. ) );
#77 = ORIENTED_EDGE ( 'NONE', *, *, #181, .T. ) ;
#78 = CIRCLE ( 'NONE', #164, 5.000000000000000000 ) ;
#79 = DIRECTION ( 'NONE',  ( -1.000000000000000000, -0.000000000000000000, -0.000000000000000000 ) ) ;
#80 = CARTESIAN_POINT ( 'NONE',  ( -3.000000000000000000, 0.000000000000000000, 5.000000000000000000 ) ) ;
#81 = ORIENTED_EDGE ( 'NONE', *, *, #54, .T. ) ;
#82 = DIRECTION ( 'NONE',  ( 1.000000000000000000, 0.000000000000000000, 0.000000000000000000 ) ) ;
#83 = PRODUCT_RELATED_PRODUCT_CATEGORY ( 'detail', '', ( #314 ) ) ;
#84 = DIRECTION ( 'NONE',  ( -1.000000000000000000, -0.000000000000000000, -0.000000000000000000 ) ) ;
#85 = APPROVAL_ROLE ( '' ) ;
#86 = DIRECTION ( 'NONE',  ( -1.000000000000000000, -0.000000000000000000, -0.000000000000000000 ) ) ;
#87 = CIRCLE ( 'NONE', #254, 5.000000000000000000 ) ;
#88 = PERSON_AND_ORGANIZATION ( #174, #70 ) ;
#89 = APPROVAL_DATE_TIME ( #292, #216 ) ;
#90 = PRODUCT_DEFINITION_SHAPE ( 'NONE', 'NONE',  #209 ) ;
#91 = PERSON_AND_ORGANIZATION ( #174, #70 ) ;
#92 = AXIS2_PLACEMENT_3D ( 'NONE', #103, #201, #176 ) ;
#93 = EDGE_CURVE ( 'NONE', #285, #35, #294, .T. ) ;
#94 = ORIENTED_EDGE ( 'NONE', *, *, #181, .F. ) ;
#95 = CARTESIAN_POINT ( 'NONE',  ( -1.250000000000000222, 0.000000000000000000, 5.000000000000000888 ) ) ;
#96 = ORIENTED_EDGE ( 'NONE', *, *, #307, .F. ) ;
#97 = DIRECTION ( 'NONE',  ( -1.000000000000000000, -0.000000000000000000, -0.000000000000000000 ) ) ;
#98 = PERSON_AND_ORGANIZATION_ROLE ( 'design_supplier' ) ;
#99 = LOCAL_TIME ( 9, 48, 37.00000000000000000, #221 ) ;
#100 = PLANE ( 'NONE',  #107 ) ;
#101 = CIRCLE ( 'NONE', #25, 12.69999999999999929 ) ;
#102 = CARTESIAN_POINT ( 'NONE',  ( -1.614212418857619014, 0.000000000000000000, 5.000000000000000888 ) ) ;
#103 = CARTESIAN_POINT ( 'NONE',  ( 3.000000000000000000, 0.000000000000000000, 0.000000000000000000 ) ) ;
#104 = FACE_OUTER_BOUND ( 'NONE', #55, .T. ) ;
#105 = DIRECTION ( 'NONE',  ( 0.000000000000000000, 0.000000000000000000, 1.000000000000000000 ) ) ;
#106 = VERTEX_POINT ( 'NONE', #56 ) ;
#107 = AXIS2_PLACEMENT_3D ( 'NONE', #72, #330, #166 ) ;
#108 = ORIENTED_EDGE ( 'NONE', *, *, #193, .T. ) ;
#109 = PERSON_AND_ORGANIZATION_ROLE ( 'design_owner' ) ;
#110 = DATE_AND_TIME ( #238, #300 ) ;
#111 = CALENDAR_DATE ( 2020, 24, 12 ) ;
#112 = APPROVAL_PERSON_ORGANIZATION ( #319, #148, #85 ) ;
#113 = CALENDAR_DATE ( 2020, 24, 12 ) ;
#114 = DIRECTION ( 'NONE',  ( -1.000000000000000000, -0.000000000000000000, -0.000000000000000000 ) ) ;
#115 = AXIS2_PLACEMENT_3D ( 'NONE', #233, #1, #282 ) ;
#116 = EDGE_LOOP ( 'NONE', ( #202, #269, #94, #42 ) ) ;
#117 = EDGE_LOOP ( 'NONE', ( #235, #190 ) ) ;
#118 = FACE_BOUND ( 'NONE', #231, .T. ) ;
#119 = COORDINATED_UNIVERSAL_TIME_OFFSET ( 8, 0, .AHEAD. ) ;
#120 = VERTEX_POINT ( 'NONE', #172 ) ;
#121 = AXIS2_PLACEMENT_3D ( 'NONE', #253, #273, #24 ) ;
#122 = CARTESIAN_POINT ( 'NONE',  ( 3.000000000000000000, 0.000000000000000000, 0.000000000000000000 ) ) ;
#123 = CC_DESIGN_PERSON_AND_ORGANIZATION_ASSIGNMENT ( #196, #40, ( #332 ) ) ;
#124 = CARTESIAN_POINT ( 'NONE',  ( 1.250000000000000444, 6.123233995736766282E-16, -5.000000000000000000 ) ) ;
#125 = ADVANCED_FACE ( 'NONE', ( #154 ), #312, .T. ) ;
#126 = CYLINDRICAL_SURFACE ( 'NONE', #53, 12.69999999999999929 ) ;
#127 = ORIENTED_EDGE ( 'NONE', *, *, #228, .F. ) ;
#128 = CIRCLE ( 'NONE', #135, 12.69999999999999929 ) ;
#129 = APPLICATION_PROTOCOL_DEFINITION ( 'international standard', 'config_control_design', 1994, #32 ) ;
#130 = DIRECTION ( 'NONE',  ( 0.000000000000000000, 0.000000000000000000, 1.000000000000000000 ) ) ;
#131 = COORDINATED_UNIVERSAL_TIME_OFFSET ( 8, 0, .AHEAD. ) ;
#132 = EDGE_CURVE ( 'NONE', #285, #8, #34, .T. ) ;
#133 = CYLINDRICAL_SURFACE ( 'NONE', #19, 5.000000000000000888 ) ;
#134 = APPROVAL_PERSON_ORGANIZATION ( #137, #177, #185 ) ;
#135 = AXIS2_PLACEMENT_3D ( 'NONE', #318, #260, #2 ) ;
#136 = EDGE_CURVE ( 'NONE', #8, #258, #78, .T. ) ;
#137 = PERSON_AND_ORGANIZATION ( #174, #70 ) ;
#138 = PERSON_AND_ORGANIZATION_ROLE ( 'creator' ) ;
#139 = ORIENTED_EDGE ( 'NONE', *, *, #251, .F. ) ;
#140 = ADVANCED_FACE ( 'NONE', ( #205 ), #126, .T. ) ;
#141 = CIRCLE ( 'NONE', #275, 12.69999999999999929 ) ;
#142 = VERTEX_POINT ( 'NONE', #232 ) ;
#143 = DIRECTION ( 'NONE',  ( 0.000000000000000000, 0.000000000000000000, 1.000000000000000000 ) ) ;
#144 = DIRECTION ( 'NONE',  ( -1.000000000000000000, 0.000000000000000000, -0.000000000000000000 ) ) ;
#145 = VERTEX_POINT ( 'NONE', #226 ) ;
#146 = DIRECTION ( 'NONE',  ( 0.000000000000000000, 0.000000000000000000, -1.000000000000000000 ) ) ;
#147 = VECTOR ( 'NONE', #227, 1000.000000000000000 ) ;
#148 = APPROVAL ( #264, 'UNSPECIFIED' ) ;
#149 = ADVANCED_FACE ( 'NONE', ( #31 ), #255, .F. ) ;
#150 = CC_DESIGN_APPROVAL ( #148, ( #209 ) ) ;
#151 = DIRECTION ( 'NONE',  ( 1.000000000000000000, 0.000000000000000000, 0.000000000000000000 ) ) ;
#152 = EDGE_LOOP ( 'NONE', ( #71, #325, #173, #327 ) ) ;
#153 = MECHANICAL_CONTEXT ( 'NONE', #32, 'mechanical' ) ;
#154 = FACE_OUTER_BOUND ( 'NONE', #66, .T. ) ;
#155 = VERTEX_POINT ( 'NONE', #200 ) ;
#156 = CARTESIAN_POINT ( 'NONE',  ( -1.250000000000000222, 0.000000000000000000, 0.000000000000000000 ) ) ;
#157 = DIRECTION ( 'NONE',  ( -1.000000000000000000, -0.000000000000000000, -0.000000000000000000 ) ) ;
#158 = AXIS2_PLACEMENT_3D ( 'NONE', #45, #144, #252 ) ;
#159 = DIRECTION ( 'NONE',  ( 0.000000000000000000, 0.000000000000000000, 1.000000000000000000 ) ) ;
#160 = COORDINATED_UNIVERSAL_TIME_OFFSET ( 8, 0, .AHEAD. ) ;
#161 = EDGE_LOOP ( 'NONE', ( #127, #69 ) ) ;
#162 = ORIENTED_EDGE ( 'NONE', *, *, #307, .T. ) ;
#163 = DIRECTION ( 'NONE',  ( -1.000000000000000000, -0.000000000000000000, -0.000000000000000000 ) ) ;
#164 = AXIS2_PLACEMENT_3D ( 'NONE', #262, #230, #130 ) ;
#165 = ORIENTED_EDGE ( 'NONE', *, *, #93, .F. ) ;
#166 = DIRECTION ( 'NONE',  ( 0.000000000000000000, 0.000000000000000000, -1.000000000000000000 ) ) ;
#167 = MANIFOLD_SOLID_BREP ( 'Ðý×', #280 ) ;
#168 = ORIENTED_EDGE ( 'NONE', *, *, #237, .T. ) ;
#169 = DIRECTION ( 'NONE',  ( 0.000000000000000000, 0.000000000000000000, 1.000000000000000000 ) ) ;
#170 = CYLINDRICAL_SURFACE ( 'NONE', #44, 5.000000000000000888 ) ;
#171 = DESIGN_CONTEXT ( 'detailed design', #180, 'design' ) ;
#172 = CARTESIAN_POINT ( 'NONE',  ( -3.000000000000000000, 1.555301434917138433E-15, -12.69999999999999929 ) ) ;
#173 = ORIENTED_EDGE ( 'NONE', *, *, #189, .T. ) ;
#174 = PERSON ( 'UNSPECIFIED', 'UNSPECIFIED', 'UNSPECIFIED', ('UNSPECIFIED'), ('UNSPECIFIED'), ('UNSPECIFIED') ) ;
#175 = DIRECTION ( 'NONE',  ( -1.000000000000000000, -0.000000000000000000, -0.000000000000000000 ) ) ;
#176 = DIRECTION ( 'NONE',  ( 0.000000000000000000, 0.000000000000000000, 1.000000000000000000 ) ) ;
#177 = APPROVAL ( #63, 'UNSPECIFIED' ) ;
#178 = CARTESIAN_POINT ( 'NONE',  ( -1.614212418857619014, 0.000000000000000000, 0.000000000000000000 ) ) ;
#179 = DIRECTION ( 'NONE',  ( 0.000000000000000000, 0.000000000000000000, -1.000000000000000000 ) ) ;
#180 = APPLICATION_CONTEXT ( 'configuration controlled 3d designs of mechanical parts and assemblies' ) ;
#181 = EDGE_CURVE ( 'NONE', #155, #120, #101, .T. ) ;
#182 = CARTESIAN_POINT ( 'NONE',  ( 3.000000000000000000, 1.555301434917138433E-15, -12.69999999999999929 ) ) ;
#183 = CC_DESIGN_APPROVAL ( #177, ( #332 ) ) ;
#184 = EDGE_CURVE ( 'NONE', #328, #120, #203, .T. ) ;
#185 = APPROVAL_ROLE ( '' ) ;
#186 = FACE_OUTER_BOUND ( 'NONE', #218, .T. ) ;
#187 = DATE_TIME_ROLE ( 'classification_date' ) ;
#188 = CIRCLE ( 'NONE', #92, 12.69999999999999929 ) ;
#189 = EDGE_CURVE ( 'NONE', #106, #57, #87, .T. ) ;
#190 = ORIENTED_EDGE ( 'NONE', *, *, #54, .F. ) ;
#191 = ORIENTED_EDGE ( 'NONE', *, *, #184, .F. ) ;
#192 = ORIENTED_EDGE ( 'NONE', *, *, #242, .T. ) ;
#193 = EDGE_CURVE ( 'NONE', #21, #57, #334, .T. ) ;
#194 = AXIS2_PLACEMENT_3D ( 'NONE', #59, #284, #105 ) ;
#195 = LOCAL_TIME ( 9, 48, 37.00000000000000000, #323 ) ;
#196 = PERSON_AND_ORGANIZATION ( #174, #70 ) ;
#197 = CARTESIAN_POINT ( 'NONE',  ( -1.250000000000000222, 0.000000000000000000, 0.000000000000000000 ) ) ;
#198 = ADVANCED_FACE ( 'NONE', ( #75, #50 ), #100, .F. ) ;
#199 = DIRECTION ( 'NONE',  ( 1.000000000000000000, 0.000000000000000000, 0.000000000000000000 ) ) ;
#200 = CARTESIAN_POINT ( 'NONE',  ( -3.000000000000000000, 0.000000000000000000, 12.69999999999999929 ) ) ;
#201 = DIRECTION ( 'NONE',  ( -1.000000000000000000, -0.000000000000000000, -0.000000000000000000 ) ) ;
#202 = ORIENTED_EDGE ( 'NONE', *, *, #317, .T. ) ;
#203 = LINE ( 'NONE', #4, #289 ) ;
#204 = DIRECTION ( 'NONE',  ( 0.000000000000000000, 0.000000000000000000, 1.000000000000000000 ) ) ;
#205 = FACE_OUTER_BOUND ( 'NONE', #116, .T. ) ;
#206 = EDGE_LOOP ( 'NONE', ( #77, #244 ) ) ;
#207 = AXIS2_PLACEMENT_3D ( 'NONE', #210, #157, #286 ) ;
#208 = LOCAL_TIME ( 9, 48, 37.00000000000000000, #119 ) ;
#209 = PRODUCT_DEFINITION ( 'UNKNOWN', '', #332, #171 ) ;
#210 = CARTESIAN_POINT ( 'NONE',  ( 3.000000000000000000, 0.000000000000000000, 0.000000000000000000 ) ) ;
#211 = ORIENTED_EDGE ( 'NONE', *, *, #132, .F. ) ;
#212 = APPLICATION_PROTOCOL_DEFINITION ( 'international standard', 'config_control_design', 1994, #180 ) ;
#213 = CARTESIAN_POINT ( 'NONE',  ( -3.000000000000000000, 0.000000000000000000, 0.000000000000000000 ) ) ;
#214 = DATE_AND_TIME ( #266, #99 ) ;
#215 = CIRCLE ( 'NONE', #225, 5.000000000000000000 ) ;
#216 = APPROVAL ( #329, 'UNSPECIFIED' ) ;
#217 = SECURITY_CLASSIFICATION ( '', '', #239 ) ;
#218 = EDGE_LOOP ( 'NONE', ( #313, #268, #168, #211 ) ) ;
#219 = FACE_OUTER_BOUND ( 'NONE', #152, .T. ) ;
#220 = PLANE ( 'NONE',  #158 ) ;
#221 = COORDINATED_UNIVERSAL_TIME_OFFSET ( 8, 0, .AHEAD. ) ;
#222 = CARTESIAN_POINT ( 'NONE',  ( -1.614212418857619014, 0.000000000000000000, 0.000000000000000000 ) ) ;
#223 = CIRCLE ( 'NONE', #236, 5.000000000000000888 ) ;
#224 = DIRECTION ( 'NONE',  ( 0.000000000000000000, 0.000000000000000000, 1.000000000000000000 ) ) ;
#225 = AXIS2_PLACEMENT_3D ( 'NONE', #213, #86, #256 ) ;
#226 = CARTESIAN_POINT ( 'NONE',  ( 3.000000000000000000, 0.000000000000000000, 12.69999999999999929 ) ) ;
#227 = DIRECTION ( 'NONE',  ( -1.000000000000000000, -0.000000000000000000, -0.000000000000000000 ) ) ;
#228 = EDGE_CURVE ( 'NONE', #21, #142, #223, .T. ) ;
#229 = CARTESIAN_POINT ( 'NONE',  ( -3.000000000000000000, 0.000000000000000000, 0.000000000000000000 ) ) ;
#230 = DIRECTION ( 'NONE',  ( -1.000000000000000000, -0.000000000000000000, -0.000000000000000000 ) ) ;
#231 = EDGE_LOOP ( 'NONE', ( #43, #192 ) ) ;
#232 = CARTESIAN_POINT ( 'NONE',  ( -1.250000000000000222, 6.123233995736767268E-16, -5.000000000000000888 ) ) ;
#233 = CARTESIAN_POINT ( 'NONE',  ( 1.250000000000000222, 5.000000000000000000, 0.000000000000000000 ) ) ;
#234 = DIRECTION ( 'NONE',  ( -1.000000000000000000, -0.000000000000000000, -0.000000000000000000 ) ) ;
#235 = ORIENTED_EDGE ( 'NONE', *, *, #317, .F. ) ;
#236 = AXIS2_PLACEMENT_3D ( 'NONE', #197, #302, #146 ) ;
#237 = EDGE_CURVE ( 'NONE', #258, #8, #12, .T. ) ;
#238 = CALENDAR_DATE ( 2020, 24, 12 ) ;
#239 = SECURITY_CLASSIFICATION_LEVEL ( 'unclassified' ) ;
#240 = APPROVAL_DATE_TIME ( #291, #177 ) ;
#241 = CARTESIAN_POINT ( 'NONE',  ( -1.614212418857619014, 0.000000000000000000, 0.000000000000000000 ) ) ;
#242 = EDGE_CURVE ( 'NONE', #35, #285, #28, .T. ) ;
#243 = CC_DESIGN_DATE_AND_TIME_ASSIGNMENT ( #214, #17, ( #209 ) ) ;
#244 = ORIENTED_EDGE ( 'NONE', *, *, #251, .T. ) ;
#245 = VECTOR ( 'NONE', #84, 1000.000000000000000 ) ;
#246 = ADVANCED_FACE ( 'NONE', ( #186 ), #133, .F. ) ;
#247 = LOCAL_TIME ( 9, 48, 37.00000000000000000, #160 ) ;
#248 = EDGE_LOOP ( 'NONE', ( #96, #261 ) ) ;
#249 = DIRECTION ( 'NONE',  ( -1.000000000000000000, -0.000000000000000000, -0.000000000000000000 ) ) ;
#250 = EDGE_LOOP ( 'NONE', ( #281, #30 ) ) ;
#251 = EDGE_CURVE ( 'NONE', #120, #155, #141, .T. ) ;
#252 = DIRECTION ( 'NONE',  ( -0.000000000000000000, 0.000000000000000000, 1.000000000000000000 ) ) ;
#253 = CARTESIAN_POINT ( 'NONE',  ( 1.250000000000000444, 0.000000000000000000, 0.000000000000000000 ) ) ;
#254 = AXIS2_PLACEMENT_3D ( 'NONE', #315, #175, #74 ) ;
#255 = PLANE ( 'NONE',  #263 ) ;
#256 = DIRECTION ( 'NONE',  ( 0.000000000000000000, 0.000000000000000000, 1.000000000000000000 ) ) ;
#257 = EDGE_CURVE ( 'NONE', #145, #155, #310, .T. ) ;
#258 = VERTEX_POINT ( 'NONE', #124 ) ;
#259 = DIRECTION ( 'NONE',  ( -1.000000000000000000, -0.000000000000000000, -0.000000000000000000 ) ) ;
#260 = DIRECTION ( 'NONE',  ( -1.000000000000000000, -0.000000000000000000, -0.000000000000000000 ) ) ;
#261 = ORIENTED_EDGE ( 'NONE', *, *, #189, .F. ) ;
#262 = CARTESIAN_POINT ( 'NONE',  ( 1.250000000000000444, 0.000000000000000000, 0.000000000000000000 ) ) ;
#263 = AXIS2_PLACEMENT_3D ( 'NONE', #278, #199, #27 ) ;
#264 = APPROVAL_STATUS ( 'not_yet_approved' ) ;
#265 = CARTESIAN_POINT ( 'NONE',  ( -1.614212418857619014, 0.000000000000000000, 0.000000000000000000 ) ) ;
#266 = CALENDAR_DATE ( 2020, 24, 12 ) ;
#267 = CC_DESIGN_PERSON_AND_ORGANIZATION_ASSIGNMENT ( #316, #109, ( #314 ) ) ;
#268 = ORIENTED_EDGE ( 'NONE', *, *, #46, .T. ) ;
#269 = ORIENTED_EDGE ( 'NONE', *, *, #184, .T. ) ;
#270 = EDGE_CURVE ( 'NONE', #142, #106, #320, .T. ) ;
#271 = CARTESIAN_POINT ( 'NONE',  ( 1.250000000000000444, 0.000000000000000000, 5.000000000000000000 ) ) ;
#272 = ORIENTED_EDGE ( 'NONE', *, *, #274, .T. ) ;
#273 = DIRECTION ( 'NONE',  ( -1.000000000000000000, -0.000000000000000000, -0.000000000000000000 ) ) ;
#274 = EDGE_CURVE ( 'NONE', #142, #21, #335, .T. ) ;
#275 = AXIS2_PLACEMENT_3D ( 'NONE', #16, #114, #169 ) ;
#276 = CC_DESIGN_DATE_AND_TIME_ASSIGNMENT ( #301, #187, ( #217 ) ) ;
#277 = UNCERTAINTY_MEASURE_WITH_UNIT (LENGTH_MEASURE( 1.000000000000000082E-05 ), #76, 'distance_accuracy_value', 'NONE');
#278 = CARTESIAN_POINT ( 'NONE',  ( -1.250000000000000222, 5.000000000000000000, 0.000000000000000000 ) ) ;
#279 = CYLINDRICAL_SURFACE ( 'NONE', #321, 5.000000000000000888 ) ;
#280 = CLOSED_SHELL ( 'NONE', ( #140, #15, #246, #297, #333, #293, #198, #125, #11, #149 ) ) ;
#281 = ORIENTED_EDGE ( 'NONE', *, *, #136, .F. ) ;
#282 = DIRECTION ( 'NONE',  ( -0.000000000000000000, 0.000000000000000000, 1.000000000000000000 ) ) ;
#283 = CARTESIAN_POINT ( 'NONE',  ( -1.614212418857619014, 0.000000000000000000, 12.69999999999999929 ) ) ;
#284 = DIRECTION ( 'NONE',  ( -1.000000000000000000, -0.000000000000000000, -0.000000000000000000 ) ) ;
#285 = VERTEX_POINT ( 'NONE', #60 ) ;
#286 = DIRECTION ( 'NONE',  ( 0.000000000000000000, 0.000000000000000000, 1.000000000000000000 ) ) ;
#287 = ADVANCED_BREP_SHAPE_REPRESENTATION ( 'QB-CTZQWP-10-780-M', ( #167, #331 ), #73 ) ;
#288 = FACE_OUTER_BOUND ( 'NONE', #250, .T. ) ;
#289 = VECTOR ( 'NONE', #304, 1000.000000000000000 ) ;
#290 = DIRECTION ( 'NONE',  ( -1.000000000000000000, -0.000000000000000000, -0.000000000000000000 ) ) ;
#291 = DATE_AND_TIME ( #322, #195 ) ;
#292 = DATE_AND_TIME ( #111, #247 ) ;
#293 = ADVANCED_FACE ( 'NONE', ( #58 ), #170, .F. ) ;
#294 = CIRCLE ( 'NONE', #207, 5.000000000000001776 ) ;
#295 = PERSON_AND_ORGANIZATION_ROLE ( 'classification_officer' ) ;
#296 = ORIENTED_EDGE ( 'NONE', *, *, #132, .T. ) ;
#297 = ADVANCED_FACE ( 'NONE', ( #288 ), #308, .F. ) ;
#298 = CARTESIAN_POINT ( 'NONE',  ( 3.000000000000000000, 6.123233995736768255E-16, -5.000000000000001776 ) ) ;
#299 = EDGE_LOOP ( 'NONE', ( #309, #272, #108, #162 ) ) ;
#300 = LOCAL_TIME ( 9, 48, 37.00000000000000000, #131 ) ;
#301 = DATE_AND_TIME ( #113, #208 ) ;
#302 = DIRECTION ( 'NONE',  ( 1.000000000000000000, 0.000000000000000000, 0.000000000000000000 ) ) ;
#303 = CC_DESIGN_PERSON_AND_ORGANIZATION_ASSIGNMENT ( #88, #138, ( #209 ) ) ;
#304 = DIRECTION ( 'NONE',  ( -1.000000000000000000, -0.000000000000000000, -0.000000000000000000 ) ) ;
#305 = AXIS2_PLACEMENT_3D ( 'NONE', #156, #82, #179 ) ;
#306 = DIRECTION ( 'NONE',  ( -1.000000000000000000, -0.000000000000000000, -0.000000000000000000 ) ) ;
#307 = EDGE_CURVE ( 'NONE', #57, #106, #215, .T. ) ;
#308 = PLANE ( 'NONE',  #115 ) ;
#309 = ORIENTED_EDGE ( 'NONE', *, *, #270, .F. ) ;
#310 = LINE ( 'NONE', #283, #324 ) ;
#311 = AXIS2_PLACEMENT_3D ( 'NONE', #122, #48, #143 ) ;
#312 = CYLINDRICAL_SURFACE ( 'NONE', #194, 12.69999999999999929 ) ;
#313 = ORIENTED_EDGE ( 'NONE', *, *, #242, .F. ) ;
#314 = PRODUCT ( 'QB-CTZQWP-10-780-M', 'QB-CTZQWP-10-780-M', '', ( #153 ) ) ;
#315 = CARTESIAN_POINT ( 'NONE',  ( -3.000000000000000000, 0.000000000000000000, 0.000000000000000000 ) ) ;
#316 = PERSON_AND_ORGANIZATION ( #174, #70 ) ;
#317 = EDGE_CURVE ( 'NONE', #145, #328, #188, .T. ) ;
#318 = CARTESIAN_POINT ( 'NONE',  ( 3.000000000000000000, 0.000000000000000000, 0.000000000000000000 ) ) ;
#319 = PERSON_AND_ORGANIZATION ( #174, #70 ) ;
#320 = LINE ( 'NONE', #38, #147 ) ;
#321 = AXIS2_PLACEMENT_3D ( 'NONE', #33, #290, #61 ) ;
#322 = CALENDAR_DATE ( 2020, 24, 12 ) ;
#323 = COORDINATED_UNIVERSAL_TIME_OFFSET ( 8, 0, .AHEAD. ) ;
#324 = VECTOR ( 'NONE', #259, 1000.000000000000000 ) ;
#325 = ORIENTED_EDGE ( 'NONE', *, *, #270, .T. ) ;
#326 = DIRECTION ( 'NONE',  ( 0.000000000000000000, 0.000000000000000000, 1.000000000000000000 ) ) ;
#327 = ORIENTED_EDGE ( 'NONE', *, *, #193, .F. ) ;
#328 = VERTEX_POINT ( 'NONE', #182 ) ;
#329 = APPROVAL_STATUS ( 'not_yet_approved' ) ;
#330 = DIRECTION ( 'NONE',  ( 1.000000000000000000, 0.000000000000000000, 0.000000000000000000 ) ) ;
#331 = AXIS2_PLACEMENT_3D ( 'NONE', #36, #159, #151 ) ;
#332 = PRODUCT_DEFINITION_FORMATION_WITH_SPECIFIED_SOURCE ( 'ANY', '', #314, .NOT_KNOWN. ) ;
#333 = ADVANCED_FACE ( 'NONE', ( #104 ), #279, .F. ) ;
#334 = LINE ( 'NONE', #102, #64 ) ;
#335 = CIRCLE ( 'NONE', #305, 5.000000000000000888 ) ;
ENDSEC;
END-ISO-10303-21;
